Monday, 4 March 2013

Tips Agar Cepat Belajar Gitar


      Bermain gitar pada dasarnya adalah dambaan setiap manusia tetapi bermain gitar adalah bukan hal yang mudah dilakukan (kalo anda tidak punya gitar hee..). Untuk bisa bermain gitar dengan lancar anda bisa belajar sendiri tanpa bantuan orang lain sekalipun apalagi sampai harus les privat segala semua itu hanya buang-buang waktu dan uang saja, anda cukup mengikuti tulisan saya ini dan mempraktekan apa yang saya katakan, karena ini merupakan pengalaman original saya. 
Perlu diketahui latihan disini merupakan dasar dalam bermain gitar jadi ini untuk pemula yang masih awam dengan gitar, untuk tingkat lebih lanjut akan ditulis pada postingan berikutnya, karena untuk menjadi orang hebat kita harus melakukanya setahap demi setahap dan dengan kesabaran.

Pertama yang anda butuhkan dalam belajar gitar tentu saja adalah gitar, boleh gitar listrik atau bolong. Alat kedua yang anda butuhkan adalah buku lagu yang memuat lirik lagu beserta kunci-kuncinya serta penjelasan kunci itu sendiri ato bisa saja anda cari di internet contoh kunci-kunci dasar gitar.  Untuk yang masih awam jangan sekali-sekali belajar tentang nada-nada kromatis, pentatonis dan lain sebagainya karena hanya akan membuat anda pusing dan ujung-ujungnya anda berhenti ditengah jalan.

Berlatihlah dengan lagu yang mudah dahulu sampai anda menemukan kenikmatan asyiknya bermain gitar sambil nyanyi. Latihlah terus jari-jari anda jangan menyerah sebelum anda bisa, luangkan waktu anda minimal 1 jam sehari untuk menjaga jari-jari anda tidak kaku.

Ini yang tidak kalah pentingnya yaitu SENAM JARI cara ini yang paling mujarab untuk cepat mahir bermain gitar. contoh nadanya silahkan anda pelajari dibawah ini.


Berikut merupakan not-not / skala yang harus ditekan oleh jari. Senam jari juga berfungsi untuk membiasakan jari-jari tangan memainkan nada-nada yang sulit karena seseorang baru  belajar bermain gitar. Dasar bermain melodi yang cepat juga bisa diperoleh dari senam jari ini karena tangan sudah  terbiasa/atau fasih dalam memainkan not-not gitar.

E = Senar 1 (paling bawah)
B = Senar 2 (no.2 dari bawah)
G = Senar 3
D = Senar 4
A = Senar 5
E = Senar 6 (paling atas)

Pola 1


     1-3-4  1-3-4  1-3-4  1-3-4  1-3-4  1-3-4  4-3-1  4-3-1  4-3-1  4-3-1  4-3-1  4-3-1  1-3-4
                         
E ||--------------------------------------------1-3-4-|-5-4-2-------------------------------------------------|----------|dst
B ||------------------------------------1-3-4---------|-----------5-4-2---------------------------------------|----------|
G ||----------------------------1-3-4-----------------|----------------------5-4-2----------------------------|----------|
D ||-------------------1-3-4--------------------------|-------------------------------5-4-2-------------------|----------|
A ||----------1-3-4-----------------------------------|----------------------------------------5-4-2-----------|----------|
E ||-1-3-4--------------------------------------------|-------------------------------------------------5-4-2--|-3-5-6-|
    

Pola 2

     1-2-4 1-2-4 1-2-4 1-2-4 1-2-4 1-2-4  4-2-1 4-2-1 4-2-1 4-2-1 4-2-1 4-2-1  1-2-4

E||---------------------------------------1-2-4--|-5-3-2------------------------------------------|----------|dst
B ||-------------------------------1-2-4---------|--------5-3-2----------------------------------|----------|
G ||-----------------------1-2-4-----------------|-----------------5-3-2-------------------------|----------|
D ||----------------1-2-4------------------------|-------------------------5-3-2-----------------|----------|
A ||--------1-2-4--------------------------------|---------------------------------5-3-2---------|----------|
E ||-1-2-4---------------------------------------|-----------------------------------------5-3-2-|-3-4-6--|
Pola 3 Arpegio (sweping)

E ||------------4--1---------------------5--2--------------------6--3----------|
B ||---------3--------2--------------4---------3--------------5--------4-------|
G ||-----2---------------3--------3---------------4--------4--------------5----|
D ||-1---------------------4--2----------------------5--3--------------------6-|
A ||--------------------------------------------------------------------------------|
E ||--------------------------------------------------------------------------------|
   
Angka 1-3-4 didalam tabelmenunjukan kolom pada gitar
Angka 1-3-4 diatas tabel menunjukan jari yang menekan senar
Angka 1= Jari telunjuk
Angka 2= Jari tengah
Angka 3= Jari manis
Angka 4= Jari kelingking

Jika ada yang belum jelas silahkan tinggalkan komen di bawah.

0 comments:

Post a Comment

Share

Twitter Delicious Facebook Digg Stumbleupon Favorites More